  0
SECTION
  2
HEADER
  9
$ACADVER
  1
AC1015
  9
$ACADMAINTVER
 70
     6
  9
$DWGCODEPAGE
  3
ANSI_1254
  9
$INSBASE
 10
0.0
 20
0.0
 30
0.0
  9
$EXTMIN
 10
0.0
 20
0.0
 30
0.0
  9
$EXTMAX
 10
279.4
 20
215.9
 30
0.0
  9
$LIMMIN
 10
0.0
 20
0.0
  9
$LIMMAX
 10
279.4
 20
215.9
  9
$ORTHOMODE
 70
     0
  9
$REGENMODE
 70
     1
  9
$FILLMODE
 70
     1
  9
$QTEXTMODE
 70
     0
  9
$MIRRTEXT
 70
     1
  9
$LTSCALE
 40
1.0
  9
$ATTMODE
 70
     1
  9
$TEXTSIZE
 40
3.5
  9
$TRACEWID
 40
1.0
  9
$TEXTSTYLE
  7
Standard
  9
$CLAYER
  8
0
  9
$CELTYPE
  6
ByLayer
  9
$CECOLOR
 62
   256
  9
$CELTSCALE
 40
1.0
  9
$DISPSILH
 70
     0
  9
$DIMSCALE
 40
1.0
  9
$DIMASZ
 40
3.5
  9
$DIMEXO
 40
1.0
  9
$DIMDLI
 40
3.75
  9
$DIMRND
 40
0.0
  9
$DIMDLE
 40
0.0
  9
$DIMEXE
 40
1.0
  9
$DIMTP
 40
0.0
  9
$DIMTM
 40
0.0
  9
$DIMTXT
 40
3.5
  9
$DIMCEN
 40
2.5
  9
$DIMTSZ
 40
0.0
  9
$DIMTOL
 70
     0
  9
$DIMLIM
 70
     0
  9
$DIMTIH
 70
     1
  9
$DIMTOH
 70
     1
  9
$DIMSE1
 70
     0
  9
$DIMSE2
 70
     0
  9
$DIMTAD
 70
     1
  9
$DIMZIN
 70
     0
  9
$DIMBLK
  1

  9
$DIMASO
 70
     1
  9
$DIMSHO
 70
     1
  9
$DIMPOST
  1

  9
$DIMAPOST
  1

  9
$DIMALT
 70
     0
  9
$DIMALTD
 70
     3
  9
$DIMALTF
 40
0.0393700787
  9
$DIMLFAC
 40
1.0
  9
$DIMTOFL
 70
     1
  9
$DIMTVP
 40
0.0
  9
$DIMTIX
 70
     0
  9
$DIMSOXD
 70
     0
  9
$DIMSAH
 70
     0
  9
$DIMBLK1
  1

  9
$DIMBLK2
  1

  9
$DIMSTYLE
  2
ISO-25
  9
$DIMCLRD
 70
     0
  9
$DIMCLRE
 70
     0
  9
$DIMCLRT
 70
     0
  9
$DIMTFAC
 40
1.0
  9
$DIMGAP
 40
1.524
  9
$DIMJUST
 70
     0
  9
$DIMSD1
 70
     0
  9
$DIMSD2
 70
     0
  9
$DIMTOLJ
 70
     0
  9
$DIMTZIN
 70
     0
  9
$DIMALTZ
 70
     0
  9
$DIMALTTZ
 70
     0
  9
$DIMUPT
 70
     0
  9
$DIMDEC
 70
     2
  9
$DIMTDEC
 70
     2
  9
$DIMALTU
 70
     2
  9
$DIMALTTD
 70
     3
  9
$DIMTXSTY
  7
Standard
  9
$DIMAUNIT
 70
     0
  9
$DIMADEC
 70
     2
  9
$DIMALTRND
 40
0.0
  9
$DIMAZIN
 70
     0
  9
$DIMDSEP
 70
    44
  9
$DIMATFIT
 70
     3
  9
$DIMFRAC
 70
     0
  9
$DIMLDRBLK
  1

  9
$DIMLUNIT
 70
     2
  9
$DIMLWD
 70
    -2
  9
$DIMLWE
 70
    -2
  9
$DIMTMOVE
 70
     0
  9
$LUNITS
 70
     2
  9
$LUPREC
 70
     2
  9
$SKETCHINC
 40
1.0
  9
$FILLETRAD
 40
10.0
  9
$AUNITS
 70
     0
  9
$AUPREC
 70
     2
  9
$MENU
  1
.
  9
$ELEVATION
 40
0.0
  9
$PELEVATION
 40
0.0
  9
$THICKNESS
 40
0.0
  9
$LIMCHECK
 70
     0
  9
$CHAMFERA
 40
0.0
  9
$CHAMFERB
 40
0.0
  9
$CHAMFERC
 40
0.0
  9
$CHAMFERD
 40
0.0
  9
$SKPOLY
 70
     0
  9
$TDCREATE
 40
2459935.699872222
  9
$TDUCREATE
 40
2459935.574872222
  9
$TDUPDATE
 40
2459935.699872408
  9
$TDUUPDATE
 40
2459935.574872408
  9
$TDINDWG
 40
0.0000000116
  9
$TDUSRTIMER
 40
0.0000000116
  9
$USRTIMER
 70
     1
  9
$ANGBASE
 50
0.0
  9
$ANGDIR
 70
     0
  9
$PDMODE
 70
     0
  9
$PDSIZE
 40
-1.0
  9
$PLINEWID
 40
0.0
  9
$SPLFRAME
 70
     0
  9
$SPLINETYPE
 70
     6
  9
$SPLINESEGS
 70
     8
  9
$HANDSEED
  5
ED
  9
$SURFTAB1
 70
     6
  9
$SURFTAB2
 70
     6
  9
$SURFTYPE
 70
     6
  9
$SURFU
 70
     6
  9
$SURFV
 70
     6
  9
$UCSBASE
  2

  9
$UCSNAME
  2

  9
$UCSORG
 10
0.0
 20
0.0
 30
0.0
  9
$UCSXDIR
 10
1.0
 20
0.0
 30
0.0
  9
$UCSYDIR
 10
0.0
 20
1.0
 30
0.0
  9
$UCSORTHOREF
  2

  9
$UCSORTHOVIEW
 70
     0
  9
$UCSORGTOP
 10
0.0
 20
0.0
 30
0.0
  9
$UCSORGBOTTOM
 10
0.0
 20
0.0
 30
0.0
  9
$UCSORGLEFT
 10
0.0
 20
0.0
 30
0.0
  9
$UCSORGRIGHT
 10
0.0
 20
0.0
 30
0.0
  9
$UCSORGFRONT
 10
0.0
 20
0.0
 30
0.0
  9
$UCSORGBACK
 10
0.0
 20
0.0
 30
0.0
  9
$PUCSBASE
  2

  9
$PUCSNAME
  2

  9
$PUCSORG
 10
0.0
 20
0.0
 30
0.0
  9
$PUCSXDIR
 10
1.0
 20
0.0
 30
0.0
  9
$PUCSYDIR
 10
0.0
 20
1.0
 30
0.0
  9
$PUCSORTHOREF
  2

  9
$PUCSORTHOVIEW
 70
     0
  9
$PUCSORGTOP
 10
0.0
 20
0.0
 30
0.0
  9
$PUCSORGBOTTOM
 10
0.0
 20
0.0
 30
0.0
  9
$PUCSORGLEFT
 10
0.0
 20
0.0
 30
0.0
  9
$PUCSORGRIGHT
 10
0.0
 20
0.0
 30
0.0
  9
$PUCSORGFRONT
 10
0.0
 20
0.0
 30
0.0
  9
$PUCSORGBACK
 10
0.0
 20
0.0
 30
0.0
  9
$USERI1
 70
     0
  9
$USERI2
 70
     0
  9
$USERI3
 70
     0
  9
$USERI4
 70
     0
  9
$USERI5
 70
     0
  9
$USERR1
 40
0.0
  9
$USERR2
 40
0.0
  9
$USERR3
 40
0.0
  9
$USERR4
 40
0.0
  9
$USERR5
 40
0.0
  9
$WORLDVIEW
 70
     1
  9
$SHADEDGE
 70
     3
  9
$SHADEDIF
 70
    70
  9
$TILEMODE
 70
     1
  9
$MAXACTVP
 70
    64
  9
$PINSBASE
 10
0.0
 20
0.0
 30
0.0
  9
$PLIMCHECK
 70
     0
  9
$PEXTMIN
 10
1.0000000000E+20
 20
1.0000000000E+20
 30
1.0000000000E+20
  9
$PEXTMAX
 10
-1.0000000000E+20
 20
-1.0000000000E+20
 30
-1.0000000000E+20
  9
$PLIMMIN
 10
0.0
 20
0.0
  9
$PLIMMAX
 10
420.0
 20
297.0
  9
$UNITMODE
 70
     0
  9
$VISRETAIN
 70
     1
  9
$PLINEGEN
 70
     0
  9
$PSLTSCALE
 70
     1
  9
$TREEDEPTH
 70
  3020
  9
$CMLSTYLE
  2
Standard
  9
$CMLJUST
 70
     0
  9
$CMLSCALE
 40
20.0
  9
$PROXYGRAPHICS
 70
     1
  9
$MEASUREMENT
 70
     1
  9
$CELWEIGHT
370
    -1
  9
$ENDCAPS
280
     0
  9
$JOINSTYLE
280
     0
  9
$LWDISPLAY
290
     1
  9
$INSUNITS
 70
     4
  9
$HYPERLINKBASE
  1

  9
$STYLESHEET
  1

  9
$XEDIT
290
     1
  9
$CEPSNTYPE
380
     0
  9
$PSTYLEMODE
290
     1
  9
$FINGERPRINTGUID
  2
{6fcb26a9-55c7-4d89-88e6-4e5c33f2e5ad}
  9
$VERSIONGUID
  2
{FAEB1C32-E019-11D5-929B-00C0DF256EC4}
  9
$EXTNAMES
290
     1
  9
$PSVPSCALE
 40
0.0
  9
$OLESTARTUP
290
     0
  0
ENDSEC
  0
SECTION
  2
CLASSES
  0
CLASS
  1
ACDBDICTIONARYWDFLT
  2
AcDbDictionaryWithDefault
  3
ObjectDBX Classes
 90
        0
280
     0
281
     0
  0
CLASS
  1
VISUALSTYLE
  2
AcDbVisualStyle
  3
ObjectDBX Classes
 90
     4095
280
     0
281
     0
  0
CLASS
  1
MATERIAL
  2
AcDbMaterial
  3
ObjectDBX Classes
 90
     1153
280
     0
281
     0
  0
CLASS
  1
SCALE
  2
AcDbScale
  3
ObjectDBX Classes
 90
     1153
280
     0
281
     0
  0
CLASS
  1
TABLESTYLE
  2
AcDbTableStyle
  3
ObjectDBX Classes
 90
     4095
280
     0
281
     0
  0
CLASS
  1
MLEADERSTYLE
  2
AcDbMLeaderStyle
  3
ACDB_MLEADERSTYLE_CLASS
 90
     4095
280
     0
281
     0
  0
CLASS
  1
SUN
  2
AcDbSun
  3
SCENEOE
 90
     1153
280
     0
281
     0
  0
CLASS
  1
ACDBPLACEHOLDER
  2
AcDbPlaceHolder
  3
ObjectDBX Classes
 90
        0
280
     0
281
     0
  0
CLASS
  1
LAYOUT
  2
AcDbLayout
  3
ObjectDBX Classes
 90
        0
280
     0
281
     0
  0
ENDSEC
  0
SECTION
  2
TABLES
  0
TABLE
  2
VPORT
  5
8
330
0
100
AcDbSymbolTable
 70
     1
  0
VPORT
  5
29
330
8
100
AcDbSymbolTableRecord
100
AcDbViewportTableRecord
  2
*Active
 70
     0
 10
0.0
 20
0.0
 11
1.0
 21
1.0
 12
139.7
 22
107.95
 13
0.0
 23
0.0
 14
10.0
 24
10.0
 15
10.0
 25
10.0
 16
0.0
 26
0.0
 36
1.0
 17
0.0
 27
0.0
 37
0.0
 40
215.9
 41
1.2941176471
 42
50.0
 43
0.0
 44
0.0
 50
0.0
 51
0.0
 71
     0
 72
  2000
 73
     1
 74
     3
 75
     0
 76
     0
 77
     0
 78
     0
281
     0
 65
     1
110
0.0
120
0.0
130
0.0
111
1.0
121
0.0
131
0.0
112
0.0
122
1.0
132
0.0
 79
     0
146
0.0
  0
ENDTAB
  0
TABLE
  2
LTYPE
  5
5
330
0
100
AcDbSymbolTable
 70
     6
  0
LTYPE
  5
14
330
5
100
AcDbSymbolTableRecord
100
AcDbLinetypeTableRecord
  2
ByBlock
 70
     0
  3

 72
    65
 73
     0
 40
0.0
  0
LTYPE
  5
15
330
5
100
AcDbSymbolTableRecord
100
AcDbLinetypeTableRecord
  2
ByLayer
 70
     0
  3

 72
    65
 73
     0
 40
0.0
  0
LTYPE
  5
16
330
5
100
AcDbSymbolTableRecord
100
AcDbLinetypeTableRecord
  2
Continuous
 70
     0
  3
Solid line
 72
    65
 73
     0
 40
0.0
  0
LTYPE
  5
6E
330
5
100
AcDbSymbolTableRecord
100
AcDbLinetypeTableRecord
  2
HIDDEN
 70
     0
  3
Hidden __ __ __ __ __ __ __ __ __ __ __ __ __ __
 72
    65
 73
     2
 40
1.905
 49
1.27
 74
     0
 49
-0.635
 74
     0
  0
LTYPE
  5
6F
330
5
100
AcDbSymbolTableRecord
100
AcDbLinetypeTableRecord
  2
PHANTOM
 70
     0
  3
Phantom ______  __  __  ______  __  __  ______
 72
    65
 73
     6
 40
12.7
 49
6.35
 74
     0
 49
-1.27
 74
     0
 49
1.27
 74
     0
 49
-1.27
 74
     0
 49
1.27
 74
     0
 49
-1.27
 74
     0
  0
LTYPE
  5
70
330
5
100
AcDbSymbolTableRecord
100
AcDbLinetypeTableRecord
  2
CENTER
 70
     0
  3
Center ____ _ ____ _ ____ _ ____ _ ____ _ ____
 72
    65
 73
     4
 40
10.16
 49
6.35
 74
     0
 49
-1.27
 74
     0
 49
1.27
 74
     0
 49
-1.27
 74
     0
  0
LTYPE
  5
71
330
5
100
AcDbSymbolTableRecord
100
AcDbLinetypeTableRecord
  2
CENTERX2
 70
     0
  3
Center (2x) ________  __  ________  __  _____
 72
    65
 73
     4
 40
20.32
 49
12.7
 74
     0
 49
-2.54
 74
     0
 49
2.54
 74
     0
 49
-2.54
 74
     0
  0
LTYPE
  5
72
330
5
100
AcDbSymbolTableRecord
100
AcDbLinetypeTableRecord
  2
DOT2
 70
     0
  3
Dot (.5x) ........................................
 72
    65
 73
     2
 40
0.635
 49
0.0
 74
     0
 49
-0.635
 74
     0
  0
ENDTAB
  0
TABLE
  2
LAYER
  5
2
330
0
100
AcDbSymbolTable
 70
    17
  0
LAYER
  5
10
330
2
100
AcDbSymbolTableRecord
100
AcDbLayerTableRecord
  2
0
 70
     0
 62
     7
  6
Continuous
370
    -3
390
F
  0
LAYER
  5
73
330
2
100
AcDbSymbolTableRecord
100
AcDbLayerTableRecord
  2
FORMAT
 70
     0
 62
     7
  6
Continuous
370
    -3
390
F
  0
LAYER
  5
74
330
2
100
AcDbSymbolTableRecord
100
AcDbLayerTableRecord
  2
YARDIMCI_GEOMETRI
 70
     0
 62
    -6
  6
Continuous
290
     0
370
    -3
390
F
  0
LAYER
  5
75
330
2
100
AcDbSymbolTableRecord
100
AcDbLayerTableRecord
  2
SAYFA_CERCEVESI
 70
     0
 62
     7
  6
Continuous
370
    25
390
F
  0
LAYER
  5
76
330
2
100
AcDbSymbolTableRecord
100
AcDbLayerTableRecord
  2
ANTET
 70
     0
 62
     7
  6
Continuous
370
    -3
390
F
  0
LAYER
  5
77
330
2
100
AcDbSymbolTableRecord
100
AcDbLayerTableRecord
  2
OLCU
 70
     0
 62
   150
  6
Continuous
370
    -3
390
F
  0
LAYER
  5
78
330
2
100
AcDbSymbolTableRecord
100
AcDbLayerTableRecord
  2
METIN
 70
     0
 62
    96
  6
Continuous
370
    -3
390
F
  0
LAYER
  5
79
330
2
100
AcDbSymbolTableRecord
100
AcDbLayerTableRecord
  2
BALON
 70
     0
 62
     5
  6
Continuous
370
    -3
390
F
  0
LAYER
  5
7A
330
2
100
AcDbSymbolTableRecord
100
AcDbLayerTableRecord
  2
VURGU
 70
     0
 62
     7
  6
Continuous
370
    -3
390
F
  0
LAYER
  5
7B
330
2
100
AcDbSymbolTableRecord
100
AcDbLayerTableRecord
  2
SILIK
 70
     0
 62
     7
  6
Continuous
370
    -3
390
F
  0
LAYER
  5
7C
330
2
100
AcDbSymbolTableRecord
100
AcDbLayerTableRecord
  2
MODEL
 70
     0
 62
     7
  6
Continuous
370
    -3
390
F
  0
LAYER
  5
7D
330
2
100
AcDbSymbolTableRecord
100
AcDbLayerTableRecord
  2
DETAYLANDıRMA
 70
     0
 62
   190
  6
Continuous
370
    -3
390
F
  0
LAYER
  5
7E
330
2
100
AcDbSymbolTableRecord
100
AcDbLayerTableRecord
  2
TOLERANS
 70
     0
 62
   230
  6
Continuous
370
    -3
390
F
  0
LAYER
  5
7F
330
2
100
AcDbSymbolTableRecord
100
AcDbLayerTableRecord
  2
MERKEZ_CIZGILERI
 70
     0
 62
    30
  6
Continuous
370
    -3
390
F
  0
LAYER
  5
80
330
2
100
AcDbSymbolTableRecord
100
AcDbLayerTableRecord
  2
KESIT-DETAY_CIZGILERI
 70
     0
 62
     7
  6
Continuous
370
    -3
390
F
  0
LAYER
  5
81
330
2
100
AcDbSymbolTableRecord
100
AcDbLayerTableRecord
  2
\U+041E\U+0421\U+0415\U+0412\U+042B\U+0415
 70
     0
 62
     7
  6
Continuous
370
    -3
390
F
  0
LAYER
  5
82
330
2
100
AcDbSymbolTableRecord
100
AcDbLayerTableRecord
  2
\U+0412\U+041E\U+0414\U+042F\U+041D\U+042B\U+0415_\U+0417\U+041D\U+0410\U+041A\U+0418
 70
     0
 62
    11
  6
Continuous
370
    -3
390
F
  0
ENDTAB
  0
TABLE
  2
STYLE
  5
3
330
0
100
AcDbSymbolTable
 70
     1
  0
STYLE
  5
11
330
3
100
AcDbSymbolTableRecord
100
AcDbTextStyleTableRecord
  2
Standard
 70
     0
 40
0.0
 41
1.0
 50
0.0
 71
     0
 42
3.5
  3
txt
  4

  0
ENDTAB
  0
TABLE
  2
VIEW
  5
6
330
0
100
AcDbSymbolTable
 70
     0
  0
ENDTAB
  0
TABLE
  2
UCS
  5
7
330
0
100
AcDbSymbolTable
 70
     0
  0
ENDTAB
  0
TABLE
  2
APPID
  5
9
330
0
100
AcDbSymbolTable
 70
     1
  0
APPID
  5
12
330
9
100
AcDbSymbolTableRecord
100
AcDbRegAppTableRecord
  2
ACAD
 70
     0
  0
ENDTAB
  0
TABLE
  2
DIMSTYLE
  5
A
330
0
100
AcDbSymbolTable
 70
     1
100
AcDbDimStyleTable
  0
DIMSTYLE
105
27
330
A
100
AcDbSymbolTableRecord
100
AcDbDimStyleTableRecord
  2
ISO-25
 70
     0
 41
2.5
 42
0.625
 43
3.75
 44
1.25
 73
     0
 74
     0
 77
     1
 78
     8
140
2.5
141
2.5
143
0.0393700787
147
0.625
171
     3
172
     1
178
     0
271
     2
272
     2
274
     3
278
    44
283
     0
284
     8
340
11
  0
ENDTAB
  0
TABLE
  2
BLOCK_RECORD
  5
1
330
0
100
AcDbSymbolTable
 70
     5
  0
BLOCK_RECORD
  5
1F
330
1
100
AcDbSymbolTableRecord
100
AcDbBlockTableRecord
  2
*Model_Space
340
22
  0
BLOCK_RECORD
  5
1B
330
1
100
AcDbSymbolTableRecord
100
AcDbBlockTableRecord
  2
*Paper_Space
340
1E
  0
BLOCK_RECORD
  5
23
330
1
100
AcDbSymbolTableRecord
100
AcDbBlockTableRecord
  2
*Paper_Space0
340
26
  0
BLOCK_RECORD
  5
97
330
1
100
AcDbSymbolTableRecord
100
AcDbBlockTableRecord
  2
SW_CENTERMARKSYMBOL_0
340
0
102
{BLKREFS
331
A2
102
}
  0
BLOCK_RECORD
  5
AC
330
1
100
AcDbSymbolTableRecord
100
AcDbBlockTableRecord
  2
SW_CENTERMARKSYMBOL_1
340
0
102
{BLKREFS
331
B7
102
}
  0
BLOCK_RECORD
  5
BF
330
1
100
AcDbSymbolTableRecord
100
AcDbBlockTableRecord
  2
SW_CENTERMARKSYMBOL_2
340
0
102
{BLKREFS
331
CA
102
}
  0
BLOCK_RECORD
  5
D2
330
1
100
AcDbSymbolTableRecord
100
AcDbBlockTableRecord
  2
SW_CENTERMARKSYMBOL_3
340
0
102
{BLKREFS
331
DD
102
}
  0
ENDTAB
  0
ENDSEC
  0
SECTION
  2
BLOCKS
  0
BLOCK
  5
20
330
1F
100
AcDbEntity
  8
0
100
AcDbBlockBegin
  2
*Model_Space
 70
     0
 10
0.0
 20
0.0
 30
0.0
  3
*Model_Space
  1

  0
ENDBLK
  5
21
330
1F
100
AcDbEntity
  8
0
100
AcDbBlockEnd
  0
BLOCK
  5
1C
330
1B
100
AcDbEntity
 67
     1
  8
0
100
AcDbBlockBegin
  2
*Paper_Space
 70
     0
 10
0.0
 20
0.0
 30
0.0
  3
*Paper_Space
  1

  0
ENDBLK
  5
1D
330
1B
100
AcDbEntity
 67
     1
  8
0
100
AcDbBlockEnd
  0
BLOCK
  5
24
330
23
100
AcDbEntity
  8
0
100
AcDbBlockBegin
  2
*Paper_Space0
 70
     0
 10
0.0
 20
0.0
 30
0.0
  3
*Paper_Space0
  1

  0
ENDBLK
  5
25
330
23
100
AcDbEntity
  8
0
100
AcDbBlockEnd
  0
BLOCK
  5
98
330
97
100
AcDbEntity
  8
0
100
AcDbBlockBegin
  2
SW_CENTERMARKSYMBOL_0
 70
     0
 10
0.0
 20
0.0
 30
0.0
  3
SW_CENTERMARKSYMBOL_0
  1

  0
LINE
  5
9A
330
97
100
AcDbEntity
  8
FORMAT
 62
     0
100
AcDbLine
 10
0.0
 20
0.0
 30
0.0
 11
0.0
 21
2.5
 31
0.0
  0
LINE
  5
9B
330
97
100
AcDbEntity
  8
FORMAT
 62
     0
100
AcDbLine
 10
0.0
 20
0.0
 30
0.0
 11
-2.5
 21
0.0
 31
0.0
  0
LINE
  5
9C
330
97
100
AcDbEntity
  8
FORMAT
 62
     0
100
AcDbLine
 10
0.0
 20
0.0
 30
0.0
 11
0.0
 21
-2.5
 31
0.0
  0
LINE
  5
9D
330
97
100
AcDbEntity
  8
FORMAT
 62
     0
100
AcDbLine
 10
0.0
 20
0.0
 30
0.0
 11
2.5
 21
0.0
 31
0.0
  0
LINE
  5
9E
330
97
100
AcDbEntity
  8
FORMAT
 62
     0
100
AcDbLine
 10
0.0
 20
5.0
 30
0.0
 11
0.0
 21
92.5
 31
0.0
  0
LINE
  5
9F
330
97
100
AcDbEntity
  8
FORMAT
 62
     0
100
AcDbLine
 10
-5.0
 20
0.0
 30
0.0
 11
-92.5
 21
0.0
 31
0.0
  0
LINE
  5
A0
330
97
100
AcDbEntity
  8
FORMAT
 62
     0
100
AcDbLine
 10
0.0
 20
-5.0
 30
0.0
 11
0.0
 21
-92.5
 31
0.0
  0
LINE
  5
A1
330
97
100
AcDbEntity
  8
FORMAT
 62
     0
100
AcDbLine
 10
5.0
 20
0.0
 30
0.0
 11
92.5
 21
0.0
 31
0.0
  0
ENDBLK
  5
99
330
97
100
AcDbEntity
  8
0
100
AcDbBlockEnd
  0
BLOCK
  5
AD
330
AC
100
AcDbEntity
  8
0
100
AcDbBlockBegin
  2
SW_CENTERMARKSYMBOL_1
 70
     0
 10
0.0
 20
0.0
 30
0.0
  3
SW_CENTERMARKSYMBOL_1
  1

  0
LINE
  5
AF
330
AC
100
AcDbEntity
  8
FORMAT
 62
     0
100
AcDbLine
 10
0.0
 20
0.0
 30
0.0
 11
0.0
 21
2.5
 31
0.0
  0
LINE
  5
B0
330
AC
100
AcDbEntity
  8
FORMAT
 62
     0
100
AcDbLine
 10
0.0
 20
0.0
 30
0.0
 11
-2.5
 21
0.0
 31
0.0
  0
LINE
  5
B1
330
AC
100
AcDbEntity
  8
FORMAT
 62
     0
100
AcDbLine
 10
0.0
 20
0.0
 30
0.0
 11
0.0
 21
-2.5
 31
0.0
  0
LINE
  5
B2
330
AC
100
AcDbEntity
  8
FORMAT
 62
     0
100
AcDbLine
 10
0.0
 20
0.0
 30
0.0
 11
2.5
 21
0.0
 31
0.0
  0
LINE
  5
B3
330
AC
100
AcDbEntity
  8
FORMAT
 62
     0
100
AcDbLine
 10
0.0
 20
5.0
 30
0.0
 11
0.0
 21
92.5
 31
0.0
  0
LINE
  5
B4
330
AC
100
AcDbEntity
  8
FORMAT
 62
     0
100
AcDbLine
 10
-5.0
 20
0.0
 30
0.0
 11
-92.5
 21
0.0
 31
0.0
  0
LINE
  5
B5
330
AC
100
AcDbEntity
  8
FORMAT
 62
     0
100
AcDbLine
 10
0.0
 20
-5.0
 30
0.0
 11
0.0
 21
-92.5
 31
0.0
  0
LINE
  5
B6
330
AC
100
AcDbEntity
  8
FORMAT
 62
     0
100
AcDbLine
 10
5.0
 20
0.0
 30
0.0
 11
92.5
 21
0.0
 31
0.0
  0
ENDBLK
  5
AE
330
AC
100
AcDbEntity
  8
0
100
AcDbBlockEnd
  0
BLOCK
  5
C0
330
BF
100
AcDbEntity
  8
0
100
AcDbBlockBegin
  2
SW_CENTERMARKSYMBOL_2
 70
     0
 10
0.0
 20
0.0
 30
0.0
  3
SW_CENTERMARKSYMBOL_2
  1

  0
LINE
  5
C2
330
BF
100
AcDbEntity
  8
FORMAT
 62
     0
100
AcDbLine
 10
0.0
 20
0.0
 30
0.0
 11
0.0
 21
2.5
 31
0.0
  0
LINE
  5
C3
330
BF
100
AcDbEntity
  8
FORMAT
 62
     0
100
AcDbLine
 10
0.0
 20
0.0
 30
0.0
 11
-2.5
 21
0.0
 31
0.0
  0
LINE
  5
C4
330
BF
100
AcDbEntity
  8
FORMAT
 62
     0
100
AcDbLine
 10
0.0
 20
0.0
 30
0.0
 11
0.0
 21
-2.5
 31
0.0
  0
LINE
  5
C5
330
BF
100
AcDbEntity
  8
FORMAT
 62
     0
100
AcDbLine
 10
0.0
 20
0.0
 30
0.0
 11
2.5
 21
0.0
 31
0.0
  0
LINE
  5
C6
330
BF
100
AcDbEntity
  8
FORMAT
 62
     0
100
AcDbLine
 10
0.0
 20
5.0
 30
0.0
 11
0.0
 21
92.5
 31
0.0
  0
LINE
  5
C7
330
BF
100
AcDbEntity
  8
FORMAT
 62
     0
100
AcDbLine
 10
-5.0
 20
0.0
 30
0.0
 11
-92.5
 21
0.0
 31
0.0
  0
LINE
  5
C8
330
BF
100
AcDbEntity
  8
FORMAT
 62
     0
100
AcDbLine
 10
0.0
 20
-5.0
 30
0.0
 11
0.0
 21
-92.5
 31
0.0
  0
LINE
  5
C9
330
BF
100
AcDbEntity
  8
FORMAT
 62
     0
100
AcDbLine
 10
5.0
 20
0.0
 30
0.0
 11
92.5
 21
0.0
 31
0.0
  0
ENDBLK
  5
C1
330
BF
100
AcDbEntity
  8
0
100
AcDbBlockEnd
  0
BLOCK
  5
D3
330
D2
100
AcDbEntity
  8
0
100
AcDbBlockBegin
  2
SW_CENTERMARKSYMBOL_3
 70
     0
 10
0.0
 20
0.0
 30
0.0
  3
SW_CENTERMARKSYMBOL_3
  1

  0
LINE
  5
D5
330
D2
100
AcDbEntity
  8
FORMAT
 62
     0
100
AcDbLine
 10
0.0
 20
0.0
 30
0.0
 11
0.0
 21
2.5
 31
0.0
  0
LINE
  5
D6
330
D2
100
AcDbEntity
  8
FORMAT
 62
     0
100
AcDbLine
 10
0.0
 20
0.0
 30
0.0
 11
-2.5
 21
0.0
 31
0.0
  0
LINE
  5
D7
330
D2
100
AcDbEntity
  8
FORMAT
 62
     0
100
AcDbLine
 10
0.0
 20
0.0
 30
0.0
 11
0.0
 21
-2.5
 31
0.0
  0
LINE
  5
D8
330
D2
100
AcDbEntity
  8
FORMAT
 62
     0
100
AcDbLine
 10
0.0
 20
0.0
 30
0.0
 11
2.5
 21
0.0
 31
0.0
  0
LINE
  5
D9
330
D2
100
AcDbEntity
  8
FORMAT
 62
     0
100
AcDbLine
 10
0.0
 20
5.0
 30
0.0
 11
0.0
 21
92.5
 31
0.0
  0
LINE
  5
DA
330
D2
100
AcDbEntity
  8
FORMAT
 62
     0
100
AcDbLine
 10
-5.0
 20
0.0
 30
0.0
 11
-92.5
 21
0.0
 31
0.0
  0
LINE
  5
DB
330
D2
100
AcDbEntity
  8
FORMAT
 62
     0
100
AcDbLine
 10
0.0
 20
-5.0
 30
0.0
 11
0.0
 21
-92.5
 31
0.0
  0
LINE
  5
DC
330
D2
100
AcDbEntity
  8
FORMAT
 62
     0
100
AcDbLine
 10
5.0
 20
0.0
 30
0.0
 11
92.5
 21
0.0
 31
0.0
  0
ENDBLK
  5
D4
330
D2
100
AcDbEntity
  8
0
100
AcDbBlockEnd
  0
ENDSEC
  0
SECTION
  2
ENTITIES
  0
LINE
  5
83
330
1F
100
AcDbEntity
  8
0
  6
Continuous
 62
     7
370
    25
100
AcDbLine
 10
-15.4104979949
 20
82.5506602623
 30
0.0
 11
-15.4104979949
 21
-57.4493397377
 31
0.0
  0
LINE
  5
84
330
1F
100
AcDbEntity
  8
0
  6
Continuous
 62
     7
370
    25
100
AcDbLine
 10
164.5895020051
 20
-57.4493397377
 30
0.0
 11
164.5895020051
 21
82.5506602623
 31
0.0
  0
ARC
  5
85
330
1F
100
AcDbEntity
  8
0
  6
Continuous
 62
     7
370
    25
100
AcDbCircle
 10
164.5895020051
 20
82.5506602623
 30
0.0
 40
180.0000000000001
100
AcDbArc
 50
90.0
 51
180.0
  0
LINE
  5
86
330
1F
100
AcDbEntity
  8
0
  6
Continuous
 62
     7
370
    25
100
AcDbLine
 10
304.5895020051
 20
262.5506602623
 30
0.0
 11
164.5895020051
 21
262.5506602623
 31
0.0
  0
LINE
  5
87
330
1F
100
AcDbEntity
  8
0
  6
Continuous
 62
     7
370
    25
100
AcDbLine
 10
164.5895020051
 20
82.5506602623
 30
0.0
 11
304.5895020051
 21
82.5506602623
 31
0.0
  0
LINE
  5
88
330
1F
100
AcDbEntity
  8
0
  6
Continuous
 62
     7
370
    25
100
AcDbLine
 10
74.5895020051
 20
-57.4493397377
 30
0.0
 11
164.5895020051
 21
-57.4493397377
 31
0.0
  0
LINE
  5
89
330
1F
100
AcDbEntity
  8
0
  6
Continuous
 62
     7
370
    25
100
AcDbLine
 10
-15.4104979949
 20
-57.4493397377
 30
0.0
 11
74.5895020051
 21
-57.4493397377
 31
0.0
  0
LINE
  5
8A
330
1F
100
AcDbEntity
  8
0
  6
Continuous
 62
     7
370
    25
100
AcDbLine
 10
304.5895020051
 20
172.5506602623
 30
0.0
 11
304.5895020051
 21
82.5506602623
 31
0.0
  0
LINE
  5
8B
330
1F
100
AcDbEntity
  8
0
  6
Continuous
 62
     7
370
    25
100
AcDbLine
 10
304.5895020051
 20
262.5506602623
 30
0.0
 11
304.5895020051
 21
172.5506602623
 31
0.0
  0
LINE
  5
8C
330
1F
100
AcDbEntity
  8
0
  6
Continuous
 62
     1
370
    25
100
AcDbLine
 10
-15.4104979949
 20
82.5506602623
 30
0.0
 11
164.5895020051
 21
82.5506602623
 31
0.0
  0
LINE
  5
8D
330
1F
100
AcDbEntity
  8
0
  6
Continuous
 62
     1
370
    25
100
AcDbLine
 10
164.5895020051
 20
262.5506602623
 30
0.0
 11
164.5895020051
 21
82.5506602623
 31
0.0
  0
LINE
  5
8E
330
1F
100
AcDbEntity
  8
0
  6
Continuous
 62
     7
370
    25
100
AcDbLine
 10
-295.701828704
 20
172.5506602623
 30
0.0
 11
-295.701828704
 21
82.5506602623
 31
0.0
  0
LINE
  5
8F
330
1F
100
AcDbEntity
  8
0
  6
Continuous
 62
     7
370
    25
100
AcDbLine
 10
-115.701828704
 20
82.5506602623
 30
0.0
 11
-115.701828704
 21
172.5506602623
 31
0.0
  0
LINE
  5
90
330
1F
100
AcDbEntity
  8
0
  6
Continuous
 62
     7
370
    25
100
AcDbLine
 10
-295.701828704
 20
82.5506602623
 30
0.0
 11
-295.701828704
 21
-57.4493397377
 31
0.0
  0
LINE
  5
91
330
1F
100
AcDbEntity
  8
0
  6
Continuous
 62
     7
370
    25
100
AcDbLine
 10
-115.701828704
 20
-57.4493397377
 30
0.0
 11
-115.701828704
 21
82.5506602623
 31
0.0
  0
CIRCLE
  5
92
330
1F
100
AcDbEntity
  8
0
  6
Continuous
 62
     7
370
    25
100
AcDbCircle
 10
-205.701828704
 20
172.5506602623
 30
0.0
 40
90.00000000000003
  0
CIRCLE
  5
93
330
1F
100
AcDbEntity
  8
0
  6
Continuous
 62
     7
370
    25
100
AcDbCircle
 10
-205.701828704
 20
172.5506602623
 30
0.0
 40
79.30000000000004
  0
LINE
  5
94
330
1F
100
AcDbEntity
  8
0
  6
Continuous
 62
     7
370
    25
100
AcDbLine
 10
-295.701828704
 20
-57.4493397377
 30
0.0
 11
-115.701828704
 21
-57.4493397377
 31
0.0
  0
LINE
  5
95
330
1F
100
AcDbEntity
  8
0
  6
Continuous
 62
     1
370
    25
100
AcDbLine
 10
-205.701828704
 20
82.5506602623
 30
0.0
 11
-115.701828704
 21
82.5506602623
 31
0.0
  0
LINE
  5
96
330
1F
100
AcDbEntity
  8
0
  6
Continuous
 62
     1
370
    25
100
AcDbLine
 10
-295.701828704
 20
82.5506602623
 30
0.0
 11
-205.701828704
 21
82.5506602623
 31
0.0
  0
INSERT
  5
A2
330
1F
100
AcDbEntity
  8
FORMAT
 62
     7
100
AcDbBlockReference
  2
SW_CENTERMARKSYMBOL_0
 10
-205.701828704
 20
172.5506602623
 30
0.0
  0
LINE
  5
A3
330
1F
100
AcDbEntity
  8
0
  6
Continuous
 62
     7
370
    25
100
AcDbLine
 10
304.5895020051
 20
522.67120083
 30
0.0
 11
164.5895020051
 21
522.67120083
 31
0.0
  0
LINE
  5
A4
330
1F
100
AcDbEntity
  8
0
  6
Continuous
 62
     7
370
    25
100
AcDbLine
 10
164.5895020051
 20
342.67120083
 30
0.0
 11
304.5895020051
 21
342.67120083
 31
0.0
  0
LINE
  5
A5
330
1F
100
AcDbEntity
  8
0
  6
Continuous
 62
     7
370
    25
100
AcDbLine
 10
164.5895020051
 20
522.67120083
 30
0.0
 11
74.5895020051
 21
522.67120083
 31
0.0
  0
LINE
  5
A6
330
1F
100
AcDbEntity
  8
0
  6
Continuous
 62
     7
370
    25
100
AcDbLine
 10
74.5895020051
 20
342.67120083
 30
0.0
 11
164.5895020051
 21
342.67120083
 31
0.0
  0
CIRCLE
  5
A7
330
1F
100
AcDbEntity
  8
0
  6
Continuous
 62
     7
370
    25
100
AcDbCircle
 10
74.5895020051
 20
432.67120083
 30
0.0
 40
79.30000000000001
  0
CIRCLE
  5
A8
330
1F
100
AcDbEntity
  8
0
  6
Continuous
 62
     7
370
    25
100
AcDbCircle
 10
74.5895020051
 20
432.67120083
 30
0.0
 40
90.00000000000006
  0
LINE
  5
A9
330
1F
100
AcDbEntity
  8
0
  6
Continuous
 62
     7
370
    25
100
AcDbLine
 10
304.5895020051
 20
522.67120083
 30
0.0
 11
304.5895020051
 21
342.67120083
 31
0.0
  0
LINE
  5
AA
330
1F
100
AcDbEntity
  8
0
  6
Continuous
 62
     1
370
    25
100
AcDbLine
 10
164.5895020051
 20
432.67120083
 30
0.0
 11
164.5895020051
 21
342.67120083
 31
0.0
  0
LINE
  5
AB
330
1F
100
AcDbEntity
  8
0
  6
Continuous
 62
     1
370
    25
100
AcDbLine
 10
164.5895020051
 20
522.67120083
 30
0.0
 11
164.5895020051
 21
432.67120083
 31
0.0
  0
INSERT
  5
B7
330
1F
100
AcDbEntity
  8
FORMAT
 62
     7
100
AcDbBlockReference
  2
SW_CENTERMARKSYMBOL_1
 10
74.5895020051
 20
432.67120083
 30
0.0
  0
LINE
  5
B8
330
1F
100
AcDbEntity
  8
0
  6
Continuous
 62
     7
370
    25
100
AcDbLine
 10
414.669286978
 20
82.5506602623
 30
0.0
 11
414.669286978
 21
-57.4493397377
 31
0.0
  0
LINE
  5
B9
330
1F
100
AcDbEntity
  8
0
  6
Continuous
 62
     7
370
    25
100
AcDbLine
 10
594.669286978
 20
-57.4493397377
 30
0.0
 11
594.669286978
 21
82.5506602623
 31
0.0
  0
LINE
  5
BA
330
1F
100
AcDbEntity
  8
0
  6
Continuous
 62
     7
370
    25
100
AcDbLine
 10
594.669286978
 20
82.5506602623
 30
0.0
 11
594.669286978
 21
172.5506602623
 31
0.0
  0
LINE
  5
BB
330
1F
100
AcDbEntity
  8
0
  6
Continuous
 62
     7
370
    25
100
AcDbLine
 10
414.669286978
 20
172.5506602623
 30
0.0
 11
414.669286978
 21
82.5506602623
 31
0.0
  0
LINE
  5
BC
330
1F
100
AcDbEntity
  8
0
  6
Continuous
 62
     7
370
    25
100
AcDbLine
 10
414.669286978
 20
-57.4493397377
 30
0.0
 11
594.669286978
 21
-57.4493397377
 31
0.0
  0
ARC
  5
BD
330
1F
100
AcDbEntity
  8
0
  6
Continuous
 62
     7
370
    25
100
AcDbCircle
 10
504.669286978
 20
172.5506602623
 30
0.0
 40
90.00000000000011
100
AcDbArc
 50
0.0
 51
180.0
  0
LINE
  5
BE
330
1F
100
AcDbEntity
  8
0
  6
Continuous
 62
     1
370
    25
100
AcDbLine
 10
414.669286978
 20
82.5506602623
 30
0.0
 11
594.669286978
 21
82.5506602623
 31
0.0
  0
INSERT
  5
CA
330
1F
100
AcDbEntity
  8
FORMAT
 62
     7
100
AcDbBlockReference
  2
SW_CENTERMARKSYMBOL_2
 10
504.669286978
 20
172.5506602623
 30
0.0
  0
LINE
  5
CB
330
1F
100
AcDbEntity
  8
0
  6
Continuous
 62
     7
370
    25
100
AcDbLine
 10
74.5895020051
 20
-343.3984273422
 30
0.0
 11
164.5895020051
 21
-343.3984273422
 31
0.0
  0
LINE
  5
CC
330
1F
100
AcDbEntity
  8
0
  6
Continuous
 62
     7
370
    25
100
AcDbLine
 10
164.5895020051
 20
-163.3984273422
 30
0.0
 11
74.5895020051
 21
-163.3984273422
 31
0.0
  0
LINE
  5
CD
330
1F
100
AcDbEntity
  8
0
  6
Continuous
 62
     7
370
    25
100
AcDbLine
 10
304.5895020051
 20
-163.3984273422
 30
0.0
 11
164.5895020051
 21
-163.3984273422
 31
0.0
  0
LINE
  5
CE
330
1F
100
AcDbEntity
  8
0
  6
Continuous
 62
     7
370
    25
100
AcDbLine
 10
164.5895020051
 20
-343.3984273422
 30
0.0
 11
304.5895020051
 21
-343.3984273422
 31
0.0
  0
ARC
  5
CF
330
1F
100
AcDbEntity
  8
0
  6
Continuous
 62
     7
370
    25
100
AcDbCircle
 10
74.5895020051
 20
-253.3984273422
 30
0.0
 40
90.00000000000003
100
AcDbArc
 50
90.0
 51
270.0
  0
LINE
  5
D0
330
1F
100
AcDbEntity
  8
0
  6
Continuous
 62
     7
370
    25
100
AcDbLine
 10
304.5895020051
 20
-163.3984273422
 30
0.0
 11
304.5895020051
 21
-343.3984273422
 31
0.0
  0
LINE
  5
D1
330
1F
100
AcDbEntity
  8
0
  6
Continuous
 62
     1
370
    25
100
AcDbLine
 10
164.5895020051
 20
-163.3984273422
 30
0.0
 11
164.5895020051
 21
-343.3984273422
 31
0.0
  0
INSERT
  5
DD
330
1F
100
AcDbEntity
  8
FORMAT
 62
     7
100
AcDbBlockReference
  2
SW_CENTERMARKSYMBOL_3
 10
74.5895020051
 20
-253.3984273422
 30
0.0
  0
LINE
  5
DE
330
1F
100
AcDbEntity
  8
0
  6
Continuous
 62
     7
370
    25
100
AcDbLine
 10
598.1328130178
 20
-107.2521357457
 30
0.0
 11
499.1378636517
 21
-164.4007035733
 31
0.0
  0
LINE
  5
DF
330
1F
100
AcDbEntity
  8
0
  6
Continuous
 62
     7
370
    25
100
AcDbLine
 10
589.1305495889
 20
-320.2894988018
 30
0.0
 11
688.125498955
 21
-263.1409309743
 31
0.0
  0
LINE
  5
E0
330
1F
100
AcDbEntity
  8
0
  6
Continuous
 62
     7
370
    25
100
AcDbLine
 10
390.4945963135
 20
-352.5721392893
 30
0.0
 11
390.4945963135
 21
-466.8878529533
 31
0.0
  0
LINE
  5
E1
330
1F
100
AcDbEntity
  8
0
  6
Continuous
 62
     7
370
    25
100
AcDbLine
 10
570.4945963135
 20
-466.8878529533
 30
0.0
 11
570.4945963135
 21
-352.5721392893
 31
0.0
  0
SPLINE
  5
E2
330
1F
100
AcDbEntity
  8
0
  6
Continuous
 62
     7
370
    25
100
AcDbSpline
210
0.0
220
0.0
230
1.0
 70
     8
 71
     3
 72
    39
 73
    35
 74
     0
 42
0.00000001
 43
0.00000001
 40
0.0
 40
0.0
 40
0.0
 40
0.0
 40
0.0208769197586264
 40
0.0529688102444141
 40
0.0851396775568144
 40
0.1174653226705768
 40
0.1498878608636693
 40
0.1823476331787851
 40
0.2147955040971627
 40
0.2472005778032953
 40
0.2795423355353365
 40
0.3118100037574484
 40
0.344001324331576
 40
0.3761211020678014
 40
0.4081797600440115
 40
0.4401920318678242
 40
0.4721758405762755
 40
0.5041513609225152
 40
0.5361402307034797
 40
0.5681601702040373
 40
0.6002310352551451
 40
0.632375118780545
 40
0.6646136509814452
 40
0.6969659426679217
 40
0.7294483371272085
 40
0.7620729203446964
 40
0.7948459678647353
 40
0.8277661604770751
 40
0.8608226900822378
 40
0.8939935031308466
 40
0.9272440733924773
 40
0.9605115974128519
 40
0.9912736068087608
 40
1.0
 40
1.0
 40
1.0
 40
1.0
 10
499.13786365166
 20
-164.4007035733206
 30
0.0
 10
497.8220175269149
 20
-165.1740396389476
 30
0.0
 10
494.4834597081221
 20
-167.1361438089574
 30
0.0
 10
489.2247037440013
 20
-170.5139153442537
 30
0.0
 10
483.3778889037309
 20
-174.5743405002366
 30
0.0
 10
477.6429285289016
 20
-178.8888584395603
 30
0.0
 10
472.0247862590602
 20
-183.4441711325334
 30
0.0
 10
466.5383144255539
 20
-188.2265503145756
 30
0.0
 10
461.1955226755648
 20
-193.2203460540222
 30
0.0
 10
456.0061346926569
 20
-198.4112016925811
 30
0.0
 10
450.977619586141
 20
-203.7858523099724
 30
0.0
 10
446.1159822552366
 20
-209.3321007549025
 30
0.0
 10
441.4260687202732
 20
-215.0388527045228
 30
0.0
 10
436.9119058156859
 20
-220.8961033376038
 30
0.0
 10
432.5770061394355
 20
-226.8948486447996
 30
0.0
 10
428.4246298112166
 20
-233.0269706041847
 30
0.0
 10
424.4579977755452
 20
-239.2851118976924
 30
0.0
 10
420.680462270905
 20
-245.6625522784315
 30
0.0
 10
417.0958180053361
 20
-252.1527723648533
 30
0.0
 10
413.7082883351218
 20
-258.7494475845731
 30
0.0
 10
410.5224840281738
 20
-265.4465278711493
 30
0.0
 10
407.5433467809966
 20
-272.2384658011312
 30
0.0
 10
404.7763269576791
 20
-279.1199569741624
 30
0.0
 10
402.2275500421326
 20
-286.0855618441782
 30
0.0
 10
399.9038704612508
 20
-293.1294703021529
 30
0.0
 10
397.8129035666192
 20
-300.245207713702
 30
0.0
 10
395.9630082855873
 20
-307.4252792178281
 30
0.0
 10
394.3632408491637
 20
-314.6607557974157
 30
0.0
 10
393.0230933888853
 20
-321.9408468777934
 30
0.0
 10
391.9525938450387
 20
-329.252451442517
 30
0.0
 10
391.1606235576641
 20
-336.5788614731632
 30
0.0
 10
390.6717129206269
 20
-343.7194249955397
 30
0.0
 10
390.5066487662505
 20
-349.0487476796237
 30
0.0
 10
390.4967776862441
 20
-351.9344408389483
 30
0.0
 10
390.4945963134937
 20
-352.5721392893213
 30
0.0
  0
SPLINE
  5
E3
330
1F
100
AcDbEntity
  8
0
  6
Continuous
 62
     7
370
    25
100
AcDbSpline
210
0.0
220
0.0
230
1.0
 70
     8
 71
     3
 72
    33
 73
    29
 74
     0
 42
0.00000001
 43
0.00000001
 40
0.0
 40
0.0
 40
0.0
 40
0.0
 40
0.0326939676418761
 40
0.0730104336314025
 40
0.1121780818253178
 40
0.1505373481400165
 40
0.1883902186535125
 40
0.2259943222199398
 40
0.2635584116999718
 40
0.3012396243712163
 40
0.3391082230731869
 40
0.3772317886420333
 40
0.415635311929601
 40
0.4543042710848983
 40
0.4931933555349245
 40
0.5322367571583765
 40
0.571350853885984
 40
0.6104468978351879
 40
0.649473294886292
 40
0.6884098248455118
 40
0.7272782916977838
 40
0.7661513391744316
 40
0.8051586829904069
 40
0.8444375435130741
 40
0.8842073038133942
 40
0.9247494681653301
 40
0.9663947757241695
 40
1.0
 40
1.0
 40
1.0
 40
1.0
 10
570.4948074670857
 20
-352.6358622641154
 30
0.0
 10
570.4948488065689
 20
-352.6295015353829
 30
0.0
 10
570.4949411237096
 20
-352.6152970935096
 30
0.0
 10
570.5220984380863
 20
-352.2630243497137
 30
0.0
 10
570.599269255767
 20
-351.6477947278433
 30
0.0
 10
570.7445481519962
 20
-350.774166918715
 30
0.0
 10
570.9739155521454
 20
-349.6686160908604
 30
0.0
 10
571.301520042717
 20
-348.3467071767042
 30
0.0
 10
571.738768257805
 20
-346.8298197654139
 30
0.0
 10
572.2939192472755
 20
-345.1420173223594
 30
0.0
 10
572.9716140399626
 20
-343.3109723353385
 30
0.0
 10
573.7724805919589
 20
-341.3674335998004
 30
0.0
 10
574.693129609411
 20
-339.3442520781145
 30
0.0
 10
575.7256347481263
 20
-337.2765403125965
 30
0.0
 10
576.8573862794603
 20
-335.2009157398577
 30
0.0
 10
578.0710991766026
 20
-333.1545873690174
 30
0.0
 10
579.3450372902755
 20
-331.1742490397364
 30
0.0
 10
580.6538197057866
 20
-329.2943480908781
 30
0.0
 10
581.969418478067
 20
-327.545631011107
 30
0.0
 10
583.2622379488008
 20
-325.9540212093582
 30
0.0
 10
584.5018674139934
 20
-324.5402025756975
 30
0.0
 10
585.6578478682994
 20
-323.31928624099
 30
0.0
 10
586.7001282580308
 20
-322.3010543830657
 30
0.0
 10
587.5989775101649
 20
-321.4901860717799
 30
0.0
 10
588.3293648204151
 20
-320.8839827466158
 30
0.0
 10
588.8566141305853
 20
-320.4820668978353
 30
0.0
 10
589.166622226316
 20
-320.2691404665614
 30
0.0
 10
589.1793499231374
 20
-320.2617075539156
 30
0.0
 10
589.1850338312211
 20
-320.2583881794155
 30
0.0
  0
LWPOLYLINE
  5
E4
330
1F
100
AcDbEntity
  8
0
  6
Continuous
 62
     7
370
    25
100
AcDbPolyline
 90
      104
 70
   128
 43
0.0
 10
579.4895456796
 20
-148.458168328
 10
579.6079174447
 20
-153.0066643466
 10
579.9625923893
 20
-157.6749087922
 10
580.5522510992
 20
-162.4455354888
 10
581.3747000054
 20
-167.3007973917
 10
582.4268795439
 20
-172.2226326079
 10
583.7048755377
 20
-177.192731587
 10
585.2039337577
 20
-182.1926052344
 10
586.918477609
 20
-187.2036536917
 10
588.8421288758
 20
-192.2072355295
 10
590.967731449
 20
-197.1847370949
 10
593.2873779475
 20
-202.1176417549
 10
595.7924391339
 20
-206.9875987803
 10
598.473596016
 20
-211.7764916111
 10
601.3208745143
 20
-216.4665052515
 10
604.3236825656
 20
-221.0401925426
 10
607.4708495267
 20
-225.4805390673
 10
610.75066773
 20
-229.7710264449
 10
614.1509360362
 20
-233.8956937806
 10
617.6590052239
 20
-237.8391970409
 10
621.2618250453
 20
-241.5868661348
 10
624.9459927741
 20
-245.124759487
 10
628.6978030643
 20
-248.4397159019
 10
632.5032989352
 20
-251.519403524
 10
636.3483236922
 20
-254.3523657129
 10
640.2185735908
 20
-256.9280636633
 10
644.099651047
 20
-259.2369156096
 10
647.9771181979
 20
-261.270332471
 10
651.8365506109
 20
-263.0207498032
 10
655.6635909441
 20
-264.4816559386
 10
659.4440023559
 20
-265.6476162107
 10
663.1637214676
 20
-266.5142931704
 10
666.8089106799
 20
-267.0784627227
 10
670.3660096495
 20
-267.3380261198
 10
673.8217857345
 20
-267.2920177687
 10
677.1633832209
 20
-266.9406088235
 10
680.3783711466
 20
-266.2851065487
 10
683.4547895455
 20
-265.3279494557
 10
686.3811939388
 20
-264.0726982318
 10
689.1466979102
 20
-262.5240224939
 10
691.7410136032
 20
-260.6876834176
 10
694.154489993
 20
-258.5705123048
 10
696.378148789
 20
-256.1803851711
 10
698.4037178343
 20
-253.5261934464
 10
700.2236618791
 20
-250.6178108983
 10
701.8312106121
 20
-247.4660569009
 10
703.2203838462
 20
-244.082656186
 10
704.3860137659
 20
-240.4801952266
 10
705.3237641513
 20
-236.6720754139
 10
706.0301465094
 20
-232.6724632039
 10
706.5025330513
 20
-228.4962374167
 10
706.7391664682
 20
-224.1589338864
 10
706.7391664682
 20
-219.6766876671
 10
706.5025330513
 20
-215.0661730092
 10
706.0301465094
 20
-210.3445413299
 10
705.3237641513
 20
-205.5293574092
 10
704.3860137659
 20
-200.6385340476
 10
703.2203838462
 20
-195.6902654292
 10
701.8312106121
 20
-190.7029594382
 10
700.2236618791
 20
-185.6951691806
 10
698.4037178343
 20
-180.685523965
 10
696.378148789
 20
-175.6926600006
 10
694.154489993
 20
-170.7351510694
 10
691.7410136032
 20
-165.8314394301
 10
689.1466979102
 20
-160.9997672121
 10
686.3811939388
 20
-156.2581085534
 10
683.4547895455
 20
-151.6241027357
 10
680.3783711466
 20
-147.1149885649
 10
677.1633832209
 20
-142.747540242
 10
673.8217857345
 20
-138.5380049616
 10
670.3660096495
 20
-134.5020424713
 10
666.8089106799
 20
-130.6546668168
 10
663.1637214676
 20
-127.0101904881
 10
659.4440023559
 20
-123.5821711766
 10
655.6635909441
 20
-120.3833613393
 10
651.8365506109
 20
-117.4256607589
 10
647.9771181979
 20
-114.7200722757
 10
644.099651047
 20
-112.2766608566
 10
640.2185735908
 20
-110.1045161527
 10
636.3483236922
 20
-108.2117186848
 10
632.5032989352
 20
-106.6053097839
 10
628.6978030643
 20
-105.2912653966
 10
624.9459927741
 20
-104.2744738543
 10
621.2618250453
 20
-103.5587176884
 10
617.6590052239
 20
-103.1466595587
 10
614.1509360362
 20
-103.0398323487
 10
610.75066773
 20
-103.2386334624
 10
607.4708495267
 20
-103.7423233468
 10
604.3236825656
 20
-104.5490282424
 10
601.3208745143
 20
-105.655747154
 10
598.473596016
 20
-107.0583630145
 10
595.7924391339
 20
-108.7516580008
 10
593.2873779475
 20
-110.7293329443
 10
590.967731449
 20
-112.9840307645
 10
588.8421288758
 20
-115.5073638372
 10
586.918477609
 20
-118.2899451978
 10
585.2039337577
 20
-121.3214234607
 10
583.7048755377
 20
-124.5905213278
 10
582.4268795439
 20
-128.0850775403
 10
581.3747000054
 20
-131.7920921195
 10
580.5522510992
 20
-135.6977747278
 10
579.9625923893
 20
-139.7875959692
 10
579.6079174447
 20
-144.0463414403
 10
579.4895456796
 20
-148.458168328
  0
LWPOLYLINE
  5
E5
330
1F
100
AcDbEntity
  8
0
  6
Continuous
 62
     7
370
    25
100
AcDbPolyline
 90
       98
 70
   128
 43
0.0
 10
587.0555882383
 20
-152.8259517262
 10
587.1731842533
 20
-148.7024735617
 10
587.5254790599
 20
-144.7320641666
 10
588.1109950111
 20
-140.9313768176
 10
588.9272762497
 20
-137.3163529185
 10
589.9708990083
 20
-133.9021551356
 10
591.2374859705
 20
-130.7031038011
 10
592.7217246304
 20
-127.7326168479
 10
594.4173895752
 20
-125.0031535308
 10
596.3173685969
 20
-122.5261621673
 10
598.4136925231
 20
-120.3120321201
 10
600.6975686428
 20
-118.37005022
 10
603.1594175858
 20
-116.7083618141
 10
605.7889135022
 20
-115.3339366009
 10
608.5750273722
 20
-114.2525393976
 10
611.506073266
 20
-113.4687059597
 10
614.5697573586
 20
-112.9857239571
 10
617.7532294941
 20
-112.8056191841
 10
621.043137084
 20
-112.9291470629
 10
624.4256811127
 20
-113.3557894744
 10
627.8866740149
 20
-114.0837569323
 10
631.4115991836
 20
-115.1099960879
 10
634.9856718577
 20
-116.4302025376
 10
638.5939011343
 20
-118.0388388768
 10
642.2211528459
 20
-119.9291579256
 10
645.8522130381
 20
-122.093231029
 10
649.4718517828
 20
-124.5219813124
 10
653.0648870571
 20
-127.2052217529
 10
656.6162484223
 20
-130.1316979076
 10
660.1110402348
 20
-133.2891351187
 10
663.5346041231
 20
-136.6642899971
 10
666.8725804705
 20
-140.2430059703
 10
670.1109686442
 20
-144.0102726598
 10
673.2361857188
 20
-147.9502888399
 10
676.2351234478
 20
-152.0465287136
 10
679.0952032441
 20
-156.2818112271
 10
681.8044289391
 20
-160.6383721339
 10
684.3514370987
 20
-165.0979385034
 10
686.7255446856
 20
-169.6418053645
 10
688.9167938675
 20
-174.2509141605
 10
690.9159937837
 20
-178.9059326872
 10
692.7147590952
 20
-183.5873361793
 10
694.305545155
 20
-188.2754892037
 10
695.6816796535
 20
-192.9507280172
 10
696.8373906046
 20
-197.5934430435
 10
697.7678305546
 20
-202.1841611224
 10
698.4690969153
 20
-206.7036271869
 10
698.9382483317
 20
-211.1328850255
 10
699.1733170198
 20
-215.4533567918
 10
699.1733170198
 20
-219.6469209257
 10
698.9382483317
 20
-223.6959881617
 10
698.4690969153
 20
-227.5835753047
 10
697.7678305546
 20
-231.2933764634
 10
696.8373906046
 20
-234.8098314422
 10
695.6816796535
 20
-238.1181910071
 10
694.305545155
 20
-241.2045787482
 10
692.7147590952
 20
-244.0560492827
 10
690.9159937837
 20
-246.6606425524
 10
688.9167938675
 20
-249.0074339878
 10
686.7255446856
 20
-251.0865803302
 10
684.3514370987
 20
-252.8893609171
 10
681.8044289391
 20
-254.4082142604
 10
679.0952032441
 20
-255.6367697611
 10
676.2351234478
 20
-256.5698744307
 10
673.2361857188
 20
-257.2036145039
 10
670.1109686442
 20
-257.5353318545
 10
666.8725804705
 20
-257.5636351447
 10
663.5346041231
 20
-257.2884056607
 10
660.1110402348
 20
-256.7107978106
 10
656.6162484223
 20
-255.8332342824
 10
653.0648870571
 20
-254.6593958825
 10
649.4718517828
 20
-253.1942060972
 10
645.8522130381
 20
-251.4438104415
 10
642.2211528459
 20
-249.4155506832
 10
638.5939011343
 20
-247.1179340486
 10
634.9856718577
 20
-244.5605975402
 10
631.4115991836
 20
-241.7542675162
 10
627.8866740149
 20
-238.7107147
 10
624.4256811127
 20
-235.4427048097
 10
621.043137084
 20
-231.9639450146
 10
617.7532294941
 20
-228.2890264422
 10
614.5697573586
 20
-224.4333629781
 10
611.506073266
 20
-220.4131266149
 10
608.5750273722
 20
-216.2451796208
 10
605.7889135022
 20
-211.9470038142
 10
603.1594175858
 20
-207.5366272381
 10
600.6975686428
 20
-203.0325485445
 10
598.4136925231
 20
-198.4536594048
 10
596.3173685969
 20
-193.8191652712
 10
594.4173895752
 20
-189.1485048229
 10
592.7217246304
 20
-184.4612684328
 10
591.2374859705
 20
-179.7771159993
 10
589.9708990083
 20
-175.1156944857
 10
588.9272762497
 20
-170.4965555136
 10
588.1109950111
 20
-165.9390733572
 10
587.5254790599
 20
-161.4623636805
 10
587.1731842533
 20
-157.0852033597
 10
587.0555882383
 20
-152.8259517262
  0
LWPOLYLINE
  5
E6
330
1F
100
AcDbEntity
  8
0
  6
Continuous
 62
     7
370
    25
100
AcDbPolyline
 90
      104
 70
   128
 43
0.0
 10
416.8549860067
 20
-430.1494879213
 10
420.8530812323
 20
-427.9781058067
 10
425.0730468113
 20
-425.9514705071
 10
429.4991841945
 20
-424.0771212389
 10
434.1150278603
 20
-422.3620307045
 10
438.9034065668
 20
-420.8125791533
 10
443.846507231
 20
-419.4345306469
 10
448.9259411936
 20
-418.2330116162
 10
454.1228126266
 20
-417.212491791
 10
459.4177888271
 20
-416.376767572
 10
464.7911721358
 20
-415.7289479081
 10
470.2229732138
 20
-415.2714427312
 10
475.6929854044
 20
-415.0059539905
 10
481.180859903
 20
-414.9334693215
 10
486.6661814559
 20
-415.054258372
 10
492.1285443067
 20
-415.3678717988
 10
497.5476281069
 20
-415.8731429393
 10
502.9032735087
 20
-416.5681921517
 10
508.1755571596
 20
-417.4504338074
 10
513.3448658181
 20
-418.5165859093
 10
518.3919693164
 20
-419.7626823016
 10
523.298092098
 20
-421.184087424
 10
528.0449830639
 20
-422.7755135559
 10
532.614983468
 20
-424.5310404878
 10
536.9910926086
 20
-426.444137544
 10
541.1570310723
 20
-428.5076878779
 10
545.0973012944
 20
-430.7140149467
 10
548.7972452108
 20
-433.0549110687
 10
552.2430987872
 20
-435.5216679568
 10
555.4220432219
 20
-438.1051091131
 10
558.3222526329
 20
-440.795623967
 10
560.9329380507
 20
-443.5832036265
 10
563.2443875539
 20
-446.4574781121
 10
565.2480023988
 20
-449.407754934
 10
566.9363290063
 20
-452.4230588687
 10
568.3030866908
 20
-455.4921727873
 10
569.3431910237
 20
-458.6036793847
 10
570.0527727488
 20
-461.7460036519
 10
570.4291921753
 20
-464.9074559361
 10
570.4710489983
 20
-468.0762754274
 10
570.1781875076
 20
-471.240673909
 10
569.5516971672
 20
-474.3888796107
 10
568.5939085624
 20
-477.5091810006
 10
567.3083847296
 20
-480.5899703526
 10
565.699907902
 20
-483.6197869278
 10
563.7744617189
 20
-486.5873596098
 10
561.5392089667
 20
-489.4816488331
 10
559.0024649324
 20
-492.2918876517
 10
556.1736664705
 20
-495.0076217928
 10
553.0633368969
 20
-497.6187485468
 10
549.683046842
 20
-500.1155543508
 10
546.0453712069
 20
-502.4887509233
 10
542.1638423838
 20
-504.729509817
 10
538.0528999148
 20
-506.8294952617
 10
533.727836776
 20
-508.7808951737
 10
529.2047424863
 20
-510.576450217
 10
524.5004432535
 20
-512.2094808091
 10
519.6324393798
 20
-513.6739119688
 10
514.6188401594
 20
-514.964295916
 10
509.4782965105
 20
-516.0758323378
 10
504.2299315932
 20
-517.0043862455
 10
498.8932696698
 20
-517.7465033578
 10
493.4881634731
 20
-518.2994229501
 10
488.034720353
 20
-518.6610881254
 10
482.5532274764
 20
-518.8301534653
 10
477.0640763566
 20
-518.8059900357
 10
471.5876869963
 20
-518.5886877262
 10
466.1444319237
 20
-518.1790549156
 10
460.7545604052
 20
-517.5786154649
 10
455.4381231168
 20
-516.7896030483
 10
450.2148975544
 20
-515.8149528438
 10
445.1043144601
 20
-514.6582906141
 10
440.1253855388
 20
-513.3239192187
 10
435.296632733
 20
-511.816802607
 10
430.6360193204
 20
-510.1425473515
 10
426.1608830888
 20
-508.3073817919
 10
421.8878718392
 20
-506.3181328646
 10
417.8328814539
 20
-504.1822007063
 10
414.0109967634
 20
-501.9075311248
 10
410.43643543
 20
-499.5025860404
 10
407.1224950565
 20
-496.9763120068
 10
404.0815037188
 20
-494.3381069293
 10
401.3247741043
 20
-491.597785104
 10
398.8625614284
 20
-488.7655407082
 10
396.7040252838
 20
-485.851909877
 10
394.8571955669
 20
-482.8677315085
 10
393.3289426054
 20
-479.8241069422
 10
392.1249516008
 20
-476.7323586615
 10
391.2497014786
 20
-473.6039881728
 10
390.7064482268
 20
-470.4506332201
 10
390.4972127833
 20
-467.2840244908
 10
390.6227735175
 20
-464.1159419773
 10
391.0826633353
 20
-460.9581711547
 10
391.8751714164
 20
-457.8224591379
 10
392.9973495786
 20
-454.7204709815
 10
394.4450232456
 20
-451.6637462851
 10
396.2128069761
 20
-448.6636562655
 10
398.2941244985
 20
-445.7313614546
 10
400.6812331751
 20
-442.8777701816
 10
403.3652528047
 20
-440.1134979934
 10
406.3361986581
 20
-437.4488281643
 10
409.5830186214
 20
-434.893673441
 10
413.0936343113
 20
-432.4575391668
 10
416.8549860067
 20
-430.1494879213
  0
LWPOLYLINE
  5
E7
330
1F
100
AcDbEntity
  8
0
  6
Continuous
 62
     7
370
    25
100
AcDbPolyline
 90
       98
 70
   128
 43
0.0
 10
424.4210285654
 20
-434.5172713196
 10
420.9089927245
 20
-436.6804999239
 10
417.6468796125
 20
-438.9704286646
 10
414.6483716655
 20
-441.3774527847
 10
411.9260456678
 20
-443.8914763887
 10
409.4913200008
 20
-446.5019547878
 10
407.3544067501
 20
-449.1979387283
 10
405.5242688724
 20
-451.9681203169
 10
404.008582602
 20
-454.8008804491
 10
402.8137052538
 20
-457.6843375444
 10
401.9446485588
 20
-460.6063973819
 10
401.4050576428
 20
-463.554803827
 10
401.1971957374
 20
-466.5171902384
 10
401.3219346879
 20
-469.4811313381
 10
401.7787512957
 20
-472.434195327
 10
402.5657295132
 20
-475.3639960285
 10
403.6795684802
 20
-478.2582448402
 10
405.1155963691
 20
-481.1048022769
 10
406.8677899798
 20
-483.8917288874
 10
408.9288000034
 20
-486.607335333
 10
411.2899818475
 20
-489.2402314165
 10
413.9414318951
 20
-491.7793738567
 10
416.8720290431
 20
-494.2141126078
 10
420.0694813486
 20
-496.5342355293
 10
423.5203775855
 20
-498.7300112195
 10
427.2102434957
 20
-500.792229832
 10
431.1236024992
 20
-502.7122417053
 10
435.2440406084
 20
-504.4819936423
 10
439.554275274
 20
-506.0940626883
 10
444.0362278737
 20
-507.5416872656
 10
448.6710995409
 20
-508.8187955336
 10
453.4394500129
 20
-509.9200308563
 10
458.3212791709
 20
-510.8407742702
 10
463.2961109267
 20
-511.5771638574
 10
468.3430791072
 20
-512.126110944
 10
473.4410149738
 20
-512.4853130552
 10
478.5685360118
 20
-512.6532635725
 10
483.704135616
 20
-512.6292580531
 10
488.826273297
 20
-512.4133971844
 10
493.9134650293
 20
-512.0065863619
 10
498.9443733628
 20
-511.4105318917
 10
503.8978969197
 20
-510.6277338332
 10
508.7532589005
 20
-509.6614755137
 10
513.4900942299
 20
-508.5158097563
 10
518.0885349743
 20
-507.1955418813
 10
522.5292936751
 20
-505.706209551
 10
526.7937442471
 20
-504.0540595428
 10
530.8640001026
 20
-502.246021548
 10
534.7229891739
 20
-500.2896791063
 10
538.3545255199
 20
-498.1932377978
 10
541.7433772151
 20
-495.9654908258
 10
544.8753302377
 20
-493.6157821354
 10
547.7372480884
 20
-491.1539672214
 10
550.317126889
 20
-488.5903717911
 10
552.6041457314
 20
-485.9357484546
 10
554.5887120636
 20
-483.2012316248
 10
556.2625019249
 20
-480.3982908155
 10
557.6184948588
 20
-477.5386825346
 10
558.6510033598
 20
-474.6344009731
 10
559.3556967283
 20
-471.697627697
 10
559.7296192356
 20
-468.7406805541
 10
559.7712025206
 20
-465.7759620084
 10
559.4802721686
 20
-462.8159071197
 10
558.8580484426
 20
-459.8729313869
 10
557.9071411651
 20
-456.9593786731
 10
556.6315387718
 20
-454.0874694307
 10
555.0365915823
 20
-451.2692494453
 10
553.1289893595
 20
-448.5165393109
 10
550.91673325
 20
-445.8408848504
 10
548.4091022248
 20
-443.2535086884
 10
545.6166141599
 20
-440.7652631798
 10
542.5509817206
 20
-438.3865848909
 10
539.2250632348
 20
-436.1274508252
 10
535.6528087604
 20
-433.997336576
 10
531.8492015742
 20
-432.0051765827
 10
527.8301953265
 20
-430.1593266568
 10
523.6126471263
 20
-428.4675289342
 10
519.2142468364
 20
-426.9368794025
 10
514.6534428762
 20
-425.5737981379
 10
509.9493648425
 20
-424.3840023768
 10
505.1217432733
 20
-423.3724825361
 10
500.1908268912
 20
-422.5434812817
 10
495.1772976731
 20
-421.9004757327
 10
490.1021841029
 20
-421.4461628781
 10
484.9867729707
 20
-421.1824482638
 10
479.8525200885
 20
-421.1104380004
 10
474.720960297
 20
-421.2304341242
 10
469.6136171415
 20
-421.5419333296
 10
464.5519125941
 20
-422.0436290807
 10
459.5570772026
 20
-422.7334170913
 10
454.6500610426
 20
-423.6084041505
 10
449.8514458451
 20
-424.6649202588
 10
445.18135867
 20
-425.8985340202
 10
440.6593874857
 20
-427.3040712301
 10
436.304499011
 20
-428.8756365768
 10
432.1349591615
 20
-430.6066383692
 10
428.1682564364
 20
-432.4898161842
 10
424.4210285654
 20
-434.5172713196
  0
LWPOLYLINE
  5
E8
330
1F
100
AcDbEntity
  8
0
  6
Continuous
 62
     1
370
    25
100
AcDbPolyline
 90
       14
 70
   128
 43
0.0
 10
544.1342066203
 20
-315.8337742573
 10
548.0139300808
 20
-317.9367995921
 10
551.8792207152
 20
-319.7586188439
 10
555.7156993885
 20
-321.2924547255
 10
559.509094148
 20
-322.5326012666
 10
563.2452933161
 20
-323.4744450408
 10
566.9103979865
 20
-324.1144823272
 10
570.490773729
 20
-324.4503321451
 10
573.9731013108
 20
-324.4807451112
 10
577.3444262445
 20
-324.2056080872
 10
580.59220698
 20
-323.6259446009
 10
583.7043615595
 20
-322.7439110386
 10
586.6693125637
 20
-321.562788623
 10
589.1305495889
 20
-320.2894988018
  0
LWPOLYLINE
  5
E9
330
1F
100
AcDbEntity
  8
0
  6
Continuous
 62
     1
370
    25
100
AcDbPolyline
 90
       40
 70
   128
 43
0.0
 10
499.1378636517
 20
-164.4007035733
 10
497.4516487109
 20
-165.4499771257
 10
494.901663744
 20
-167.3572059194
 10
492.5348270703
 20
-169.5433946087
 10
490.3599434775
 20
-172.0004104281
 10
488.3851036755
 20
-174.7191131174
 10
486.6176541981
 20
-177.689388924
 10
485.0641700734
 20
-180.9001882268
 10
483.7304303643
 20
-184.3395666415
 10
482.6213966703
 20
-187.9947294546
 10
481.7411946695
 20
-191.8520792203
 10
481.0930987711
 20
-195.897266344
 10
480.6795199345
 20
-200.1152424641
 10
480.5019967
 20
-204.4903164323
 10
480.5611894658
 20
-209.0062126861
 10
480.856878031
 20
-213.6461317949
 10
481.3879624145
 20
-218.3928129547
 10
482.1524669477
 20
-223.2285982
 10
483.1475476235
 20
-228.1354980919
 10
484.3695026763
 20
-233.0952586407
 10
485.8137863532
 20
-238.0894292112
 10
487.4750258239
 20
-243.099431161
 10
489.3470411686
 20
-248.1066269538
 10
491.4228683672
 20
-253.0923894923
 10
493.6947852062
 20
-258.0381714124
 10
496.1543400058
 20
-262.9255740806
 10
498.7923830604
 20
-267.7364160379
 10
501.5991006768
 20
-272.4528006362
 10
504.564051681
 20
-277.0571826151
 10
507.6762062606
 20
-281.5324333712
 10
510.923986996
 20
-285.8619046777
 10
514.2953119297
 20
-290.0294906171
 10
517.7776395115
 20
-294.0196874958
 10
521.3580152541
 20
-297.8176515195
 10
525.0231199244
 20
-301.4092540125
 10
528.7593190925
 20
-304.7811339777
 10
532.552713852
 20
-307.9207478001
 10
536.3891925253
 20
-310.81641591
 10
540.2544831598
 20
-313.457366232
 10
544.1342066203
 20
-315.8337742573
  0
LWPOLYLINE
  5
EA
330
1F
100
AcDbEntity
  8
0
  6
Continuous
 62
     1
370
    25
100
AcDbPolyline
 90
       14
 70
   128
 43
0.0
 10
544.1342066203
 20
-315.8337742573
 10
547.8955583157
 20
-318.1418255028
 10
551.4061740056
 20
-320.577959777
 10
554.6529939689
 20
-323.1331145003
 10
557.6239398222
 20
-325.7977843294
 10
560.3079594519
 20
-328.5620565176
 10
562.6950681284
 20
-331.4156477906
 10
564.7763856509
 20
-334.3479426015
 10
566.5441693814
 20
-337.3480326211
 10
567.9918430484
 20
-340.4047573175
 10
569.1140212106
 20
-343.5067454739
 10
569.9065292917
 20
-346.6424574907
 10
570.3664191095
 20
-349.8002283133
 10
570.4945963135
 20
-352.5721392893
  0
LWPOLYLINE
  5
EB
330
1F
100
AcDbEntity
  8
0
  6
Continuous
 62
     1
370
    25
100
AcDbPolyline
 90
       40
 70
   128
 43
0.0
 10
390.4945963135
 20
-352.5721392893
 10
390.5600004517
 20
-350.5917422721
 10
390.9364198782
 20
-347.4302899879
 10
391.6460016032
 20
-344.2879657207
 10
392.6861059362
 20
-341.1764591233
 10
394.0528636206
 20
-338.1073452047
 10
395.7411902282
 20
-335.09204127
 10
397.744805073
 20
-332.1417644481
 10
400.0562545763
 20
-329.2674899625
 10
402.6669399941
 20
-326.479910303
 10
405.567149405
 20
-323.7893954491
 10
408.7460938398
 20
-321.2059542928
 10
412.1919474162
 20
-318.7391974047
 10
415.8918913326
 20
-316.3983012826
 10
419.8321615547
 20
-314.1919742139
 10
423.9981000184
 20
-312.12842388
 10
428.374209159
 20
-310.2153268238
 10
432.9442095631
 20
-308.4597998919
 10
437.691100529
 20
-306.86837376
 10
442.5972233106
 20
-305.4469686376
 10
447.6443268089
 20
-304.2008722453
 10
452.8136354674
 20
-303.1347201434
 10
458.0859191182
 20
-302.2524784877
 10
463.4415645201
 20
-301.5574292753
 10
468.8606483203
 20
-301.0521581348
 10
474.3230111711
 20
-300.738544708
 10
479.808332724
 20
-300.6177556575
 10
485.2962072226
 20
-300.6902403265
 10
490.7662194132
 20
-300.9557290672
 10
496.1980204912
 20
-301.4132342441
 10
501.5714037999
 20
-302.061053908
 10
506.8663800003
 20
-302.896778127
 10
512.0632514334
 20
-303.9172979522
 10
517.142685396
 20
-305.1188169829
 10
522.0857860602
 20
-306.4968654893
 10
526.8741647667
 20
-308.0463170405
 10
531.4900084324
 20
-309.7614075749
 10
535.9161458157
 20
-311.6357568431
 10
540.1361113947
 20
-313.6623921427
 10
544.1342066203
 20
-315.8337742573
  0
ENDSEC
  0
SECTION
  2
OBJECTS
  0
DICTIONARY
  5
C
330
0
100
AcDbDictionary
281
     1
  3
ACAD_GROUP
350
D
  3
ACAD_LAYOUT
350
1A
  3
ACAD_MLINESTYLE
350
17
  3
ACAD_PLOTSETTINGS
350
19
  3
ACAD_PLOTSTYLENAME
350
E
  3
ACAD_SCALELIST
350
47
  3
DWGPROPS
350
EC
  0
DICTIONARY
  5
D
102
{ACAD_REACTORS
330
C
102
}
330
C
100
AcDbDictionary
281
     1
  0
DICTIONARY
  5
1A
102
{ACAD_REACTORS
330
C
102
}
330
C
100
AcDbDictionary
281
     1
  3
Layout1
350
1E
  3
Layout2
350
26
  3
Model
350
22
  0
DICTIONARY
  5
17
102
{ACAD_REACTORS
330
C
102
}
330
C
100
AcDbDictionary
281
     1
  3
Standard
350
18
  0
DICTIONARY
  5
19
102
{ACAD_REACTORS
330
C
102
}
330
C
100
AcDbDictionary
281
     1
  0
ACDBDICTIONARYWDFLT
  5
E
102
{ACAD_REACTORS
330
C
102
}
330
C
100
AcDbDictionary
281
     1
  3
Normal
350
F
100
AcDbDictionaryWithDefault
340
F
  0
DICTIONARY
  5
47
102
{ACAD_REACTORS
330
C
102
}
330
C
100
AcDbDictionary
281
     1
  3
A0
350
48
  3
A1
350
49
  3
A2
350
4A
  3
A3
350
4B
  3
A4
350
4C
  3
A5
350
4D
  3
A6
350
4E
  3
A7
350
4F
  3
A8
350
50
  3
A9
350
51
  3
B0
350
52
  3
B1
350
53
  3
B2
350
54
  3
B3
350
55
  3
B4
350
56
  3
B5
350
57
  3
B6
350
58
  3
B7
350
59
  3
B8
350
5A
  3
B9
350
5B
  3
C0
350
5C
  3
C1
350
5D
  3
C2
350
5E
  3
C3
350
5F
  3
C4
350
60
  3
C5
350
61
  3
C6
350
62
  3
C7
350
63
  3
C8
350
64
  3
C9
350
65
  3
D0
350
66
  3
D1
350
67
  3
D2
350
68
  0
XRECORD
  5
EC
102
{ACAD_REACTORS
330
C
102
}
330
C
100
AcDbXrecord
280
     1
  1
DWGPROPS COOKIE
  2

  3

  4

  6

  7

  8
b.kav
  9

300
=
301
=
302
=
303
=
304
=
305
=
306
=
307
=
308
=
309
=
 40
0.0
 41
2459935.574872222
 42
2459935.574872408
  1

 90
        0
  0
LAYOUT
  5
1E
102
{ACAD_REACTORS
330
1A
102
}
330
1A
100
AcDbPlotSettings
  1

  2
none_device
  4

  6

 40
0.0
 41
0.0
 42
0.0
 43
0.0
 44
0.0
 45
0.0
 46
0.0
 47
0.0
 48
0.0
 49
0.0
140
0.0
141
0.0
142
1.0
143
1.0
 70
   688
 72
     1
 73
     0
 74
     5
  7

 75
    16
147
1.0
148
0.0
149
0.0
100
AcDbLayout
  1
Layout1
 70
     1
 71
     1
 10
0.0
 20
0.0
 11
420.0
 21
297.0
 12
0.0
 22
0.0
 32
0.0
 14
1.0000000000E+20
 24
1.0000000000E+20
 34
1.0000000000E+20
 15
-1.0000000000E+20
 25
-1.0000000000E+20
 35
-1.0000000000E+20
146
0.0
 13
0.0
 23
0.0
 33
0.0
 16
1.0
 26
0.0
 36
0.0
 17
0.0
 27
1.0
 37
0.0
 76
     0
330
1B
  0
LAYOUT
  5
26
102
{ACAD_REACTORS
330
1A
102
}
330
1A
100
AcDbPlotSettings
  1

  2
none_device
  4

  6

 40
0.0
 41
0.0
 42
0.0
 43
0.0
 44
0.0
 45
0.0
 46
0.0
 47
0.0
 48
0.0
 49
0.0
140
0.0
141
0.0
142
1.0
143
1.0
 70
   688
 72
     1
 73
     0
 74
     5
  7

 75
    16
147
1.0
148
0.0
149
0.0
100
AcDbLayout
  1
Layout2
 70
     1
 71
     2
 10
0.0
 20
0.0
 11
0.0
 21
0.0
 12
0.0
 22
0.0
 32
0.0
 14
0.0
 24
0.0
 34
0.0
 15
0.0
 25
0.0
 35
0.0
146
0.0
 13
0.0
 23
0.0
 33
0.0
 16
1.0
 26
0.0
 36
0.0
 17
0.0
 27
1.0
 37
0.0
 76
     0
330
23
  0
LAYOUT
  5
22
102
{ACAD_REACTORS
330
1A
102
}
330
1A
100
AcDbPlotSettings
  1

  2
none_device
  4
Letter_(8.50_x_11.00_Inches)
  6

 40
6.35
 41
6.35
 42
6.35000508
 43
6.35000508
 44
215.9
 45
279.4
 46
0.0
 47
0.0
 48
0.0
 49
0.0
140
0.0
141
0.0
142
1.0
143
1.0
 70
  1712
 72
     1
 73
     0
 74
     0
  7

 75
     0
147
1.0
148
0.0
149
0.0
100
AcDbLayout
  1
Model
 70
     1
 71
     0
 10
0.0
 20
0.0
 11
279.4
 21
215.9
 12
0.0
 22
0.0
 32
0.0
 14
0.0
 24
0.0
 34
0.0
 15
279.4
 25
215.9
 35
0.0
146
0.0
 13
0.0
 23
0.0
 33
0.0
 16
1.0
 26
0.0
 36
0.0
 17
0.0
 27
1.0
 37
0.0
 76
     0
330
1F
331
29
  0
MLINESTYLE
  5
18
102
{ACAD_REACTORS
330
17
102
}
330
17
100
AcDbMlineStyle
  2
Standard
 70
     0
  3

 62
   256
 51
90.0
 52
90.0
 71
     2
 49
0.5
 62
   256
  6
BYLAYER
 49
-0.5
 62
   256
  6
BYLAYER
  0
ACDBPLACEHOLDER
  5
F
102
{ACAD_REACTORS
330
E
102
}
330
E
  0
SCALE
  5
48
102
{ACAD_REACTORS
330
47
102
}
330
47
100
AcDbScale
 70
     0
300
1:1
140
1.0
141
1.0
290
     1
  0
SCALE
  5
49
102
{ACAD_REACTORS
330
47
102
}
330
47
100
AcDbScale
 70
     0
300
1:2
140
1.0
141
2.0
290
     0
  0
SCALE
  5
4A
102
{ACAD_REACTORS
330
47
102
}
330
47
100
AcDbScale
 70
     0
300
1:4
140
1.0
141
4.0
290
     0
  0
SCALE
  5
4B
102
{ACAD_REACTORS
330
47
102
}
330
47
100
AcDbScale
 70
     0
300
1:5
140
1.0
141
5.0
290
     0
  0
SCALE
  5
4C
102
{ACAD_REACTORS
330
47
102
}
330
47
100
AcDbScale
 70
     0
300
1:8
140
1.0
141
8.0
290
     0
  0
SCALE
  5
4D
102
{ACAD_REACTORS
330
47
102
}
330
47
100
AcDbScale
 70
     0
300
1:10
140
1.0
141
10.0
290
     0
  0
SCALE
  5
4E
102
{ACAD_REACTORS
330
47
102
}
330
47
100
AcDbScale
 70
     0
300
1:16
140
1.0
141
16.0
290
     0
  0
SCALE
  5
4F
102
{ACAD_REACTORS
330
47
102
}
330
47
100
AcDbScale
 70
     0
300
1:20
140
1.0
141
20.0
290
     0
  0
SCALE
  5
50
102
{ACAD_REACTORS
330
47
102
}
330
47
100
AcDbScale
 70
     0
300
1:30
140
1.0
141
30.0
290
     0
  0
SCALE
  5
51
102
{ACAD_REACTORS
330
47
102
}
330
47
100
AcDbScale
 70
     0
300
1:40
140
1.0
141
40.0
290
     0
  0
SCALE
  5
52
102
{ACAD_REACTORS
330
47
102
}
330
47
100
AcDbScale
 70
     0
300
1:50
140
1.0
141
50.0
290
     0
  0
SCALE
  5
53
102
{ACAD_REACTORS
330
47
102
}
330
47
100
AcDbScale
 70
     0
300
1:100
140
1.0
141
100.0
290
     0
  0
SCALE
  5
54
102
{ACAD_REACTORS
330
47
102
}
330
47
100
AcDbScale
 70
     0
300
2:1
140
2.0
141
1.0
290
     0
  0
SCALE
  5
55
102
{ACAD_REACTORS
330
47
102
}
330
47
100
AcDbScale
 70
     0
300
4:1
140
4.0
141
1.0
290
     0
  0
SCALE
  5
56
102
{ACAD_REACTORS
330
47
102
}
330
47
100
AcDbScale
 70
     0
300
8:1
140
8.0
141
1.0
290
     0
  0
SCALE
  5
57
102
{ACAD_REACTORS
330
47
102
}
330
47
100
AcDbScale
 70
     0
300
10:1
140
10.0
141
1.0
290
     0
  0
SCALE
  5
58
102
{ACAD_REACTORS
330
47
102
}
330
47
100
AcDbScale
 70
     0
300
100:1
140
100.0
141
1.0
290
     0
  0
SCALE
  5
59
102
{ACAD_REACTORS
330
47
102
}
330
47
100
AcDbScale
 70
     0
300
1/128" = 1'-0"
140
0.0078125
141
12.0
290
     0
  0
SCALE
  5
5A
102
{ACAD_REACTORS
330
47
102
}
330
47
100
AcDbScale
 70
     0
300
1/64" = 1'-0"
140
0.015625
141
12.0
290
     0
  0
SCALE
  5
5B
102
{ACAD_REACTORS
330
47
102
}
330
47
100
AcDbScale
 70
     0
300
1/32" = 1'-0"
140
0.03125
141
12.0
290
     0
  0
SCALE
  5
5C
102
{ACAD_REACTORS
330
47
102
}
330
47
100
AcDbScale
 70
     0
300
1/16" = 1'-0"
140
0.0625
141
12.0
290
     0
  0
SCALE
  5
5D
102
{ACAD_REACTORS
330
47
102
}
330
47
100
AcDbScale
 70
     0
300
3/32" = 1'-0"
140
0.09375
141
12.0
290
     0
  0
SCALE
  5
5E
102
{ACAD_REACTORS
330
47
102
}
330
47
100
AcDbScale
 70
     0
300
1/8" = 1'-0"
140
0.125
141
12.0
290
     0
  0
SCALE
  5
5F
102
{ACAD_REACTORS
330
47
102
}
330
47
100
AcDbScale
 70
     0
300
3/16" = 1'-0"
140
0.1875
141
12.0
290
     0
  0
SCALE
  5
60
102
{ACAD_REACTORS
330
47
102
}
330
47
100
AcDbScale
 70
     0
300
1/4" = 1'-0"
140
0.25
141
12.0
290
     0
  0
SCALE
  5
61
102
{ACAD_REACTORS
330
47
102
}
330
47
100
AcDbScale
 70
     0
300
3/8" = 1'-0"
140
0.375
141
12.0
290
     0
  0
SCALE
  5
62
102
{ACAD_REACTORS
330
47
102
}
330
47
100
AcDbScale
 70
     0
300
1/2" = 1'-0"
140
0.5
141
12.0
290
     0
  0
SCALE
  5
63
102
{ACAD_REACTORS
330
47
102
}
330
47
100
AcDbScale
 70
     0
300
3/4" = 1'-0"
140
0.75
141
12.0
290
     0
  0
SCALE
  5
64
102
{ACAD_REACTORS
330
47
102
}
330
47
100
AcDbScale
 70
     0
300
1" = 1'-0"
140
1.0
141
12.0
290
     0
  0
SCALE
  5
65
102
{ACAD_REACTORS
330
47
102
}
330
47
100
AcDbScale
 70
     0
300
1-1/2" = 1'-0"
140
1.5
141
12.0
290
     0
  0
SCALE
  5
66
102
{ACAD_REACTORS
330
47
102
}
330
47
100
AcDbScale
 70
     0
300
3" = 1'-0"
140
3.0
141
12.0
290
     0
  0
SCALE
  5
67
102
{ACAD_REACTORS
330
47
102
}
330
47
100
AcDbScale
 70
     0
300
6" = 1'-0"
140
6.0
141
12.0
290
     0
  0
SCALE
  5
68
102
{ACAD_REACTORS
330
47
102
}
330
47
100
AcDbScale
 70
     0
300
1'-0" = 1'-0"
140
12.0
141
12.0
290
     0
  0
ENDSEC
  0
EOF
